ISO-10303-21;
HEADER;
FILE_DESCRIPTION (( 'STEP AP203' ),
    '1' );
FILE_NAME ('QB-CTZHWP-25.4-633-M.STEP',
    '2020-12-24T01:36:36',
    ( '' ),
    ( '' ),
    'SwSTEP 2.0',
    'SolidWorks 2020',
    '' );
FILE_SCHEMA (( 'CONFIG_CONTROL_DESIGN' ));
ENDSEC;

DATA;
#1 = VERTEX_POINT ( 'NONE', #147 ) ;
#2 = ORIENTED_EDGE ( 'NONE', *, *, #47, .F. ) ;
#3 = CALENDAR_DATE ( 2020, 24, 12 ) ;
#4 = PERSON_AND_ORGANIZATION ( #58, #32 ) ;
#5 = AXIS2_PLACEMENT_3D ( 'NONE', #24, #10, #131 ) ;
#6 = LOCAL_TIME ( 9, 36, 36.00000000000000000, #109 ) ;
#7 = DATE_AND_TIME ( #171, #57 ) ;
#8 = FACE_OUTER_BOUND ( 'NONE', #51, .T. ) ;
#9 =( LENGTH_UNIT ( ) NAMED_UNIT ( * ) SI_UNIT ( .MILLI., .METRE. ) );
#10 = DIRECTION ( 'NONE',  ( 1.000000000000000000, 0.000000000000000000, 0.000000000000000000 ) ) ;
#11 = DIRECTION ( 'NONE',  ( -1.000000000000000000, -0.000000000000000000, -0.000000000000000000 ) ) ;
#12 = DIRECTION ( 'NONE',  ( -1.000000000000000000, -0.000000000000000000, -0.000000000000000000 ) ) ;
#13 = CLOSED_SHELL ( 'NONE', ( #142, #31, #81, #158 ) ) ;
#14 = CC_DESIGN_APPROVAL ( #84, ( #100 ) ) ;
#15 = DIRECTION ( 'NONE',  ( -0.000000000000000000, 0.000000000000000000, 1.000000000000000000 ) ) ;
#16 = PRODUCT ( 'QB-CTZHWP-25.4-633-M', 'QB-CTZHWP-25.4-633-M', '', ( #72 ) ) ;
#17 = ORIENTED_EDGE ( 'NONE', *, *, #52, .F. ) ;
#18 = EDGE_LOOP ( 'NONE', ( #148, #119, #91, #103 ) ) ;
#19 = APPROVAL_PERSON_ORGANIZATION ( #129, #95, #169 ) ;
#20 = SHAPE_DEFINITION_REPRESENTATION ( #160, #86 ) ;
#21 = DIRECTION ( 'NONE',  ( 0.000000000000000000, 0.000000000000000000, 1.000000000000000000 ) ) ;
#22 = AXIS2_PLACEMENT_3D ( 'NONE', #132, #21, #85 ) ;
#23 = PERSON_AND_ORGANIZATION_ROLE ( 'design_owner' ) ;
#24 = CARTESIAN_POINT ( 'NONE',  ( -3.000000000000000888, 12.69999999999999929, 0.000000000000000000 ) ) ;
#25 = APPLICATION_PROTOCOL_DEFINITION ( 'international standard', 'config_control_design', 1994, #80 ) ;
#26 = PLANE ( 'NONE',  #133 ) ;
#27 = DIRECTION ( 'NONE',  ( -1.000000000000000000, 0.000000000000000000, -0.000000000000000000 ) ) ;
#28 = APPROVAL_PERSON_ORGANIZATION ( #4, #172, #151 ) ;
#29 = ORIENTED_EDGE ( 'NONE', *, *, #135, .T. ) ;
#30 = CARTESIAN_POINT ( 'NONE',  ( -3.000000000000000000, 1.836970198721029589E-15, -15.00000000000000000 ) ) ;
#31 = ADVANCED_FACE ( 'NONE', ( #120 ), #26, .F. ) ;
#32 = ORGANIZATION ( 'UNSPECIFIED', 'UNSPECIFIED', '' ) ;
#33 = AXIS2_PLACEMENT_3D ( 'NONE', #174, #98, #99 ) ;
#34 = PERSON_AND_ORGANIZATION ( #58, #32 ) ;
#35 = APPROVAL_STATUS ( 'not_yet_approved' ) ;
#36 = CC_DESIGN_DATE_AND_TIME_ASSIGNMENT ( #7, #96, ( #128 ) ) ;
#37 = PERSON_AND_ORGANIZATION ( #58, #32 ) ;
#38 = CYLINDRICAL_SURFACE ( 'NONE', #66, 15.00000000000000000 ) ;
#39 = PLANE ( 'NONE',  #5 ) ;
#40 = ORIENTED_EDGE ( 'NONE', *, *, #52, .T. ) ;
#41 = CYLINDRICAL_SURFACE ( 'NONE', #152, 15.00000000000000000 ) ;
#42 = DIRECTION ( 'NONE',  ( 0.000000000000000000, 0.000000000000000000, 1.000000000000000000 ) ) ;
#43 = DATE_AND_TIME ( #45, #83 ) ;
#44 = CARTESIAN_POINT ( 'NONE',  ( -3.000000000000000000, 0.000000000000000000, 15.00000000000000000 ) ) ;
#45 = CALENDAR_DATE ( 2020, 24, 12 ) ;
#46 = FACE_OUTER_BOUND ( 'NONE', #18, .T. ) ;
#47 = EDGE_CURVE ( 'NONE', #175, #1, #125, .T. ) ;
#48 = ORIENTED_EDGE ( 'NONE', *, *, #122, .T. ) ;
#49 = DIRECTION ( 'NONE',  ( -1.000000000000000000, -0.000000000000000000, -0.000000000000000000 ) ) ;
#50 = DIRECTION ( 'NONE',  ( -1.000000000000000000, -0.000000000000000000, -0.000000000000000000 ) ) ;
#51 = EDGE_LOOP ( 'NONE', ( #48, #40 ) ) ;
#52 = EDGE_CURVE ( 'NONE', #117, #168, #123, .T. ) ;
#53 = PERSON_AND_ORGANIZATION_ROLE ( 'classification_officer' ) ;
#54 = DATE_TIME_ROLE ( 'classification_date' ) ;
#55 = EDGE_CURVE ( 'NONE', #1, #117, #64, .T. ) ;
#56 = CALENDAR_DATE ( 2020, 24, 12 ) ;
#57 = LOCAL_TIME ( 9, 36, 36.00000000000000000, #116 ) ;
#58 = PERSON ( 'UNSPECIFIED', 'UNSPECIFIED', 'UNSPECIFIED', ('UNSPECIFIED'), ('UNSPECIFIED'), ('UNSPECIFIED') ) ;
#59 = CARTESIAN_POINT ( 'NONE',  ( 3.000000000000000000, 0.000000000000000000, 15.00000000000000000 ) ) ;
#60 = ORIENTED_EDGE ( 'NONE', *, *, #135, .F. ) ;
#61 = UNCERTAINTY_MEASURE_WITH_UNIT (LENGTH_MEASURE( 1.000000000000000082E-05 ), #9, 'distance_accuracy_value', 'NONE');
#62 = DIRECTION ( 'NONE',  ( 0.000000000000000000, 0.000000000000000000, 1.000000000000000000 ) ) ;
#63 = CIRCLE ( 'NONE', #107, 15.00000000000000000 ) ;
#64 = LINE ( 'NONE', #118, #163 ) ;
#65 = EDGE_LOOP ( 'NONE', ( #137, #29, #92, #17 ) ) ;
#66 = AXIS2_PLACEMENT_3D ( 'NONE', #82, #11, #113 ) ;
#67 =( NAMED_UNIT ( * ) SI_UNIT ( $, .STERADIAN. ) SOLID_ANGLE_UNIT ( ) );
#68 = SECURITY_CLASSIFICATION ( '', '', #79 ) ;
#69 = COORDINATED_UNIVERSAL_TIME_OFFSET ( 8, 0, .AHEAD. ) ;
#70 = PERSON_AND_ORGANIZATION ( #58, #32 ) ;
#71 = CC_DESIGN_PERSON_AND_ORGANIZATION_ASSIGNMENT ( #70, #154, ( #100 ) ) ;
#72 = MECHANICAL_CONTEXT ( 'NONE', #80, 'mechanical' ) ;
#73 = APPROVAL_STATUS ( 'not_yet_approved' ) ;
#74 = DIRECTION ( 'NONE',  ( -1.000000000000000000, -0.000000000000000000, -0.000000000000000000 ) ) ;
#75 = CARTESIAN_POINT ( 'NONE',  ( -3.000000000000000000, 0.000000000000000000, 0.000000000000000000 ) ) ;
#76 = CARTESIAN_POINT ( 'NONE',  ( -1.614212418857619014, 0.000000000000000000, 15.00000000000000000 ) ) ;
#77 = CARTESIAN_POINT ( 'NONE',  ( -3.000000000000000000, 0.000000000000000000, 0.000000000000000000 ) ) ;
#78 = CIRCLE ( 'NONE', #33, 15.00000000000000000 ) ;
#79 = SECURITY_CLASSIFICATION_LEVEL ( 'unclassified' ) ;
#80 = APPLICATION_CONTEXT ( 'configuration controlled 3d designs of mechanical parts and assemblies' ) ;
#81 = ADVANCED_FACE ( 'NONE', ( #102 ), #41, .T. ) ;
#82 = CARTESIAN_POINT ( 'NONE',  ( -1.614212418857619014, 0.000000000000000000, 0.000000000000000000 ) ) ;
#83 = LOCAL_TIME ( 9, 36, 36.00000000000000000, #114 ) ;
#84 = APPROVAL ( #35, 'UNSPECIFIED' ) ;
#85 = DIRECTION ( 'NONE',  ( 1.000000000000000000, 0.000000000000000000, 0.000000000000000000 ) ) ;
#86 = ADVANCED_BREP_SHAPE_REPRESENTATION ( 'QB-CTZHWP-25.4-633-M', ( #124, #22 ), #89 ) ;
#87 = EDGE_CURVE ( 'NONE', #175, #168, #94, .T. ) ;
#88 = APPROVAL_DATE_TIME ( #43, #95 ) ;
#89 =( GEOMETRIC_REPRESENTATION_CONTEXT ( 3 ) GLOBAL_UNCERTAINTY_ASSIGNED_CONTEXT ( ( #61 ) ) GLOBAL_UNIT_ASSIGNED_CONTEXT ( ( #9, #166, #67 ) ) REPRESENTATION_CONTEXT ( 'NONE', 'WORKASPACE' ) );
#90 = CARTESIAN_POINT ( 'NONE',  ( 3.000000000000000000, 0.000000000000000000, 0.000000000000000000 ) ) ;
#91 = ORIENTED_EDGE ( 'NONE', *, *, #122, .F. ) ;
#92 = ORIENTED_EDGE ( 'NONE', *, *, #87, .T. ) ;
#93 = APPLICATION_CONTEXT ( 'configuration controlled 3d designs of mechanical parts and assemblies' ) ;
#94 = LINE ( 'NONE', #76, #161 ) ;
#95 = APPROVAL ( #73, 'UNSPECIFIED' ) ;
#96 = DATE_TIME_ROLE ( 'creation_date' ) ;
#97 = DATE_AND_TIME ( #165, #143 ) ;
#98 = DIRECTION ( 'NONE',  ( -1.000000000000000000, -0.000000000000000000, -0.000000000000000000 ) ) ;
#99 = DIRECTION ( 'NONE',  ( 0.000000000000000000, 0.000000000000000000, 1.000000000000000000 ) ) ;
#100 = PRODUCT_DEFINITION_FORMATION_WITH_SPECIFIED_SOURCE ( 'ANY', '', #16, .NOT_KNOWN. ) ;
#101 = CARTESIAN_POINT ( 'NONE',  ( 3.000000000000000888, 12.69999999999999929, 0.000000000000000000 ) ) ;
#102 = FACE_OUTER_BOUND ( 'NONE', #65, .T. ) ;
#103 = ORIENTED_EDGE ( 'NONE', *, *, #87, .F. ) ;
#104 = COORDINATED_UNIVERSAL_TIME_OFFSET ( 8, 0, .AHEAD. ) ;
#105 = APPROVAL_DATE_TIME ( #139, #172 ) ;
#106 = CC_DESIGN_PERSON_AND_ORGANIZATION_ASSIGNMENT ( #34, #53, ( #68 ) ) ;
#107 = AXIS2_PLACEMENT_3D ( 'NONE', #77, #12, #62 ) ;
#108 = CC_DESIGN_APPROVAL ( #172, ( #68 ) ) ;
#109 = COORDINATED_UNIVERSAL_TIME_OFFSET ( 8, 0, .AHEAD. ) ;
#110 = AXIS2_PLACEMENT_3D ( 'NONE', #75, #136, #42 ) ;
#111 = CC_DESIGN_APPROVAL ( #95, ( #128 ) ) ;
#112 = CC_DESIGN_PERSON_AND_ORGANIZATION_ASSIGNMENT ( #164, #23, ( #16 ) ) ;
#113 = DIRECTION ( 'NONE',  ( 0.000000000000000000, 0.000000000000000000, 1.000000000000000000 ) ) ;
#114 = COORDINATED_UNIVERSAL_TIME_OFFSET ( 8, 0, .AHEAD. ) ;
#115 = APPLICATION_PROTOCOL_DEFINITION ( 'international standard', 'config_control_design', 1994, #93 ) ;
#116 = COORDINATED_UNIVERSAL_TIME_OFFSET ( 8, 0, .AHEAD. ) ;
#117 = VERTEX_POINT ( 'NONE', #30 ) ;
#118 = CARTESIAN_POINT ( 'NONE',  ( -1.614212418857619014, 1.836970198721029589E-15, -15.00000000000000000 ) ) ;
#119 = ORIENTED_EDGE ( 'NONE', *, *, #55, .T. ) ;
#120 = FACE_OUTER_BOUND ( 'NONE', #159, .T. ) ;
#121 = AXIS2_PLACEMENT_3D ( 'NONE', #90, #50, #162 ) ;
#122 = EDGE_CURVE ( 'NONE', #168, #117, #63, .T. ) ;
#123 = CIRCLE ( 'NONE', #110, 15.00000000000000000 ) ;
#124 = MANIFOLD_SOLID_BREP ( 'Ðý×', #13 ) ;
#125 = CIRCLE ( 'NONE', #121, 15.00000000000000000 ) ;
#126 = CC_DESIGN_SECURITY_CLASSIFICATION ( #68, ( #100 ) ) ;
#127 = CC_DESIGN_PERSON_AND_ORGANIZATION_ASSIGNMENT ( #157, #146, ( #128 ) ) ;
#128 = PRODUCT_DEFINITION ( 'UNKNOWN', '', #100, #170 ) ;
#129 = PERSON_AND_ORGANIZATION ( #58, #32 ) ;
#130 = CC_DESIGN_PERSON_AND_ORGANIZATION_ASSIGNMENT ( #37, #145, ( #100 ) ) ;
#131 = DIRECTION ( 'NONE',  ( 0.000000000000000000, 0.000000000000000000, -1.000000000000000000 ) ) ;
#132 = CARTESIAN_POINT ( 'NONE',  ( 0.000000000000000000, 0.000000000000000000, 0.000000000000000000 ) ) ;
#133 = AXIS2_PLACEMENT_3D ( 'NONE', #101, #27, #15 ) ;
#134 = DIRECTION ( 'NONE',  ( 0.000000000000000000, 0.000000000000000000, 1.000000000000000000 ) ) ;
#135 = EDGE_CURVE ( 'NONE', #1, #175, #78, .T. ) ;
#136 = DIRECTION ( 'NONE',  ( -1.000000000000000000, -0.000000000000000000, -0.000000000000000000 ) ) ;
#137 = ORIENTED_EDGE ( 'NONE', *, *, #55, .F. ) ;
#138 = CC_DESIGN_DATE_AND_TIME_ASSIGNMENT ( #153, #54, ( #68 ) ) ;
#139 = DATE_AND_TIME ( #3, #173 ) ;
#140 = APPROVAL_PERSON_ORGANIZATION ( #155, #84, #144 ) ;
#141 = APPROVAL_STATUS ( 'not_yet_approved' ) ;
#142 = ADVANCED_FACE ( 'NONE', ( #46 ), #38, .T. ) ;
#143 = LOCAL_TIME ( 9, 36, 36.00000000000000000, #69 ) ;
#144 = APPROVAL_ROLE ( '' ) ;
#145 = PERSON_AND_ORGANIZATION_ROLE ( 'creator' ) ;
#146 = PERSON_AND_ORGANIZATION_ROLE ( 'creator' ) ;
#147 = CARTESIAN_POINT ( 'NONE',  ( 3.000000000000000000, 1.836970198721029589E-15, -15.00000000000000000 ) ) ;
#148 = ORIENTED_EDGE ( 'NONE', *, *, #47, .T. ) ;
#149 = CARTESIAN_POINT ( 'NONE',  ( -1.614212418857619014, 0.000000000000000000, 0.000000000000000000 ) ) ;
#150 = DIRECTION ( 'NONE',  ( -1.000000000000000000, -0.000000000000000000, -0.000000000000000000 ) ) ;
#151 = APPROVAL_ROLE ( '' ) ;
#152 = AXIS2_PLACEMENT_3D ( 'NONE', #149, #74, #134 ) ;
#153 = DATE_AND_TIME ( #56, #6 ) ;
#154 = PERSON_AND_ORGANIZATION_ROLE ( 'design_supplier' ) ;
#155 = PERSON_AND_ORGANIZATION ( #58, #32 ) ;
#156 = APPROVAL_DATE_TIME ( #97, #84 ) ;
#157 = PERSON_AND_ORGANIZATION ( #58, #32 ) ;
#158 = ADVANCED_FACE ( 'NONE', ( #8 ), #39, .F. ) ;
#159 = EDGE_LOOP ( 'NONE', ( #2, #60 ) ) ;
#160 = PRODUCT_DEFINITION_SHAPE ( 'NONE', 'NONE',  #128 ) ;
#161 = VECTOR ( 'NONE', #150, 1000.000000000000000 ) ;
#162 = DIRECTION ( 'NONE',  ( 0.000000000000000000, 0.000000000000000000, 1.000000000000000000 ) ) ;
#163 = VECTOR ( 'NONE', #49, 1000.000000000000000 ) ;
#164 = PERSON_AND_ORGANIZATION ( #58, #32 ) ;
#165 = CALENDAR_DATE ( 2020, 24, 12 ) ;
#166 =( NAMED_UNIT ( * ) PLANE_ANGLE_UNIT ( ) SI_UNIT ( $, .RADIAN. ) );
#167 = PRODUCT_RELATED_PRODUCT_CATEGORY ( 'detail', '', ( #16 ) ) ;
#168 = VERTEX_POINT ( 'NONE', #44 ) ;
#169 = APPROVAL_ROLE ( '' ) ;
#170 = DESIGN_CONTEXT ( 'detailed design', #93, 'design' ) ;
#171 = CALENDAR_DATE ( 2020, 24, 12 ) ;
#172 = APPROVAL ( #141, 'UNSPECIFIED' ) ;
#173 = LOCAL_TIME ( 9, 36, 36.00000000000000000, #104 ) ;
#174 = CARTESIAN_POINT ( 'NONE',  ( 3.000000000000000000, 0.000000000000000000, 0.000000000000000000 ) ) ;
#175 = VERTEX_POINT ( 'NONE', #59 ) ;
ENDSEC;
END-ISO-10303-21;
